0
SECTION
2
HEADER
9
$EXTMIN
10
0.003373
20
0.430822
9
$EXTMAX
10
35.963570
20
24.406336
0
ENDSEC
0
SECTION
2
TABLES
0
TABLE
2
LTYPE
70
1
0
LTYPE
2
0
70
0
3
Solid Line
72
65
73
0
40
0.0
0
ENDTAB
0
TABLE
2
LAYER
70
1
0
LAYER
2
1
70
0
62
7
6
0
0
ENDTAB
0
ENDSEC
0
SECTION
2
BLOCKS
0
ENDSEC
0
SECTION
2
ENTITIES
0
POLYLINE
8
1
66
1
70
1
0
VERTEX
8
1
10
4.355614
20
2.864196
42
0.060460
0
VERTEX
8
1
10
4.373558
20
2.753190
42
-0.349784
0
VERTEX
8
1
10
4.247265
20
2.944162
42
-0.084181
0
VERTEX
8
1
10
4.282312
20
3.125198
42
0.010514
0
VERTEX
8
1
10
4.359717
20
3.354856
42
0.025060
0
VERTEX
8
1
10
4.375073
20
3.426808
42
-0.235580
0
VERTEX
8
1
10
4.419277
20
3.286512
0
VERTEX
8
1
10
4.418537
20
3.273577
42
-0.013481
0
VERTEX
8
1
10
4.365372
20
3.002259
42
0.038917
0
SEQEND
0
POLYLINE
8
1
66
1
70
1
0
VERTEX
8
1
10
3.842847
20
4.128374
42
-0.103453
0
VERTEX
8
1
10
4.340607
20
4.228073
42
-0.057754
0
VERTEX
8
1
10
4.925864
20
4.162044
42
0.088653
0
VERTEX
8
1
10
4.414563
20
3.785357
42
0.149313
0
VERTEX
8
1
10
4.088476
20
3.076793
42
0.028301
0
VERTEX
8
1
10
4.067839
20
2.875143
42
-0.267850
0
VERTEX
8
1
10
3.951632
20
2.909983
42
0.152852
0
VERTEX
8
1
10
3.882283
20
2.936196
42
-0.049142
0
VERTEX
8
1
10
3.869569
20
2.605117
42
-0.123341
0
VERTEX
8
1
10
3.807082
20
2.456857
42
-0.221765
0
VERTEX
8
1
10
3.637144
20
2.384117
42
0.013119
0
VERTEX
8
1
10
3.639088
20
2.544733
0
VERTEX
8
1
10
3.636651
20
2.561033
42
0.383581
0
VERTEX
8
1
10
3.576807
20
2.629294
42
0.072641
0
VERTEX
8
1
10
3.507128
20
2.486245
42
-0.013740
0
VERTEX
8
1
10
3.426412
20
2.248857
42
-0.113506
0
VERTEX
8
1
10
3.327888
20
2.090905
42
-0.204854
0
VERTEX
8
1
10
3.102945
20
2.015635
0
VERTEX
8
1
10
3.085894
20
2.016253
42
-0.112031
0
VERTEX
8
1
10
3.135278
20
2.351010
0
VERTEX
8
1
10
3.146062
20
2.385351
0
VERTEX
8
1
10
3.156011
20
2.419943
0
VERTEX
8
1
10
3.165118
20
2.454767
42
0.329357
0
VERTEX
8
1
10
3.092719
20
2.644609
42
0.045524
0
VERTEX
8
1
10
3.025743
20
2.689332
0
VERTEX
8
1
10
3.049476
20
2.754144
42
0.007411
0
VERTEX
8
1
10
3.224401
20
3.299174
0
VERTEX
8
1
10
3.247340
20
3.364870
0
VERTEX
8
1
10
3.271287
20
3.430205
42
-0.097731
0
VERTEX
8
1
10
3.554317
20
3.922066
42
-0.097542
0
SEQEND
0
POLYLINE
8
1
66
1
70
1
0
VERTEX
8
1
10
2.044063
20
6.185427
42
-0.116985
0
VERTEX
8
1
10
1.679630
20
6.787453
0
VERTEX
8
1
10
1.695577
20
6.799808
42
-0.246710
0
VERTEX
8
1
10
2.267683
20
6.609404
42
-0.070255
0
VERTEX
8
1
10
2.531199
20
6.244231
0
VERTEX
8
1
10
2.545739
20
6.220589
42
0.012995
0
VERTEX
8
1
10
2.769574
20
5.821501
42
0.105860
0
VERTEX
8
1
10
3.161508
20
5.394346
42
-0.009258
0
VERTEX
8
1
10
3.501094
20
5.138639
0
VERTEX
8
1
10
3.535415
20
5.109226
42
-0.139024
0
VERTEX
8
1
10
3.796141
20
4.747311
42
-0.036336
0
VERTEX
8
1
10
3.821265
20
4.649332
42
-0.261574
0
VERTEX
8
1
10
3.766239
20
4.608257
42
-0.075731
0
VERTEX
8
1
10
3.658805
20
4.599520
0
VERTEX
8
1
10
3.629144
20
4.598004
0
VERTEX
8
1
10
3.599507
20
4.596045
42
0.225120
0
VERTEX
8
1
10
3.524059
20
4.556557
42
0.090751
0
VERTEX
8
1
10
3.515832
20
4.533705
42
0.059094
0
VERTEX
8
1
10
3.185547
20
4.766478
42
0.008235
0
VERTEX
8
1
10
2.724499
20
5.006733
0
VERTEX
8
1
10
2.629549
20
5.057322
42
-0.065701
0
VERTEX
8
1
10
2.244500
20
5.333326
42
-0.237448
0
VERTEX
8
1
10
2.010079
20
5.990072
42
-0.046261
0
SEQEND
0
POLYLINE
8
1
66
1
70
1
0
VERTEX
8
1
10
1.730441
20
6.234867
42
0.102621
0
VERTEX
8
1
10
1.794093
20
5.634194
42
0.152286
0
VERTEX
8
1
10
2.180178
20
5.124623
42
0.053226
0
VERTEX
8
1
10
2.561347
20
4.897029
42
0.004527
0
VERTEX
8
1
10
3.073875
20
4.662397
42
-0.024561
0
VERTEX
8
1
10
3.331615
20
4.529881
42
-0.120588
0
VERTEX
8
1
10
2.831215
20
4.433427
42
-0.168856
0
VERTEX
8
1
10
2.290792
20
4.674766
42
-0.080971
0
VERTEX
8
1
10
1.973299
20
5.070831
42
-0.065698
0
VERTEX
8
1
10
1.630359
20
5.900941
42
-0.034715
0
VERTEX
8
1
10
1.491981
20
6.553874
42
-0.151730
0
VERTEX
8
1
10
1.570649
20
6.470435
0
VERTEX
8
1
10
1.584981
20
6.446287
0
VERTEX
8
1
10
1.598990
20
6.421951
0
VERTEX
8
1
10
1.612671
20
6.397429
42
0.236912
0
VERTEX
8
1
10
1.737431
20
6.307984
0
SEQEND
0
POLYLINE
8
1
66
1
70
1
0
VERTEX
8
1
10
3.526142
20
5.529382
42
0.158137
0
VERTEX
8
1
10
3.763042
20
5.387626
42
0.140923
0
VERTEX
8
1
10
3.741726
20
5.451844
42
0.037765
0
VERTEX
8
1
10
3.590470
20
5.646513
42
-0.044048
0
VERTEX
8
1
10
3.416564
20
5.887678
0
VERTEX
8
1
10
3.405237
20
5.910601
0
VERTEX
8
1
10
3.394869
20
5.933973
0
VERTEX
8
1
10
3.414640
20
5.929809
42
-0.075377
0
VERTEX
8
1
10
3.939860
20
5.559587
42
-0.096562
0
VERTEX
8
1
10
4.673212
20
4.571910
42
-0.029797
0
VERTEX
8
1
10
4.737767
20
4.411057
42
0.027730
0
VERTEX
8
1
10
4.434621
20
4.547274
42
0.107044
0
VERTEX
8
1
10
4.011781
20
4.590942
0
VERTEX
8
1
10
3.999251
20
4.620175
42
0.102930
0
VERTEX
8
1
10
3.736209
20
5.103327
42
0.025303
0
VERTEX
8
1
10
3.419948
20
5.444414
0
VERTEX
8
1
10
3.371175
20
5.496676
0
VERTEX
8
1
10
3.323136
20
5.549612
42
-0.082785
0
VERTEX
8
1
10
3.036312
20
5.974688
42
-0.151273
0
VERTEX
8
1
10
3.040401
20
5.998546
42
-0.175863
0
VERTEX
8
1
10
3.301967
20
5.828293
42
-0.018783
0
VERTEX
8
1
10
3.464590
20
5.603778
42
0.018985
0
SEQEND
0
POLYLINE
8
1
66
1
70
1
0
VERTEX
8
1
10
5.108607
20
4.164258
42
-0.219244
0
VERTEX
8
1
10
4.922115
20
4.626061
42
-0.023534
0
VERTEX
8
1
10
4.926879
20
4.711987
42
0.126742
0
VERTEX
8
1
10
5.046603
20
4.521266
0
VERTEX
8
1
10
5.055769
20
4.514819
0
VERTEX
8
1
10
5.065347
20
4.509003
42
0.517063
0
VERTEX
8
1
10
5.148004
20
4.533696
0
VERTEX
8
1
10
5.152014
20
4.542075
42
0.097243
0
VERTEX
8
1
10
5.169761
20
4.713922
42
-0.329025
0
VERTEX
8
1
10
5.235260
20
4.509119
0
VERTEX
8
1
10
5.229816
20
4.488263
0
VERTEX
8
1
10
5.223350
20
4.467701
42
0.003601
0
VERTEX
8
1
10
5.123139
20
4.238141
42
0.052829
0
SEQEND
0
POLYLINE
8
1
66
1
70
1
0
VERTEX
8
1
10
5.749216
20
4.262041
42
-0.101936
0
VERTEX
8
1
10
6.427548
20
4.100349
42
-0.129669
0
VERTEX
8
1
10
6.781631
20
3.799764
42
-0.173852
0
VERTEX
8
1
10
6.890833
20
3.321633
0
VERTEX
8
1
10
6.889293
20
3.301806
42
0.015868
0
VERTEX
8
1
10
6.996130
20
3.167309
42
-0.217680
0
VERTEX
8
1
10
7.140715
20
2.688552
0
VERTEX
8
1
10
7.137308
20
2.658825
0
VERTEX
8
1
10
7.132830
20
2.629240
0
VERTEX
8
1
10
6.948720
20
2.629240
42
0.096182
0
VERTEX
8
1
10
7.012327
20
2.475236
0
VERTEX
8
1
10
7.034382
20
2.437242
0
VERTEX
8
1
10
7.056808
20
2.399464
0
VERTEX
8
1
10
7.079599
20
2.361907
42
-0.129219
0
VERTEX
8
1
10
7.137568
20
2.181467
42
-0.196886
0
VERTEX
8
1
10
7.074314
20
2.025244
0
VERTEX
8
1
10
7.068831
20
2.022599
0
VERTEX
8
1
10
7.063023
20
2.020771
0
VERTEX
8
1
10
7.045102
20
2.030801
42
-0.241340
0
VERTEX
8
1
10
6.655041
20
2.583811
42
-0.022705
0
VERTEX
8
1
10
6.643064
20
2.677011
0
VERTEX
8
1
10
6.637155
20
2.689747
42
0.331140
0
VERTEX
8
1
10
6.580105
20
2.623893
0
VERTEX
8
1
10
6.578686
20
2.617840
42
0.022833
0
VERTEX
8
1
10
6.569960
20
2.467463
42
-0.170057
0
VERTEX
8
1
10
6.540729
20
2.396998
42
-0.369944
0
VERTEX
8
1
10
6.491873
20
2.392911
42
-0.206158
0
VERTEX
8
1
10
6.359176
20
2.529459
42
-0.045446
0
VERTEX
8
1
10
6.285381
20
2.786740
0
VERTEX
8
1
10
6.278348
20
2.809168
42
0.158312
0
VERTEX
8
1
10
6.209804
20
2.924432
42
0.230895
0
VERTEX
8
1
10
6.097364
20
2.937076
0
VERTEX
8
1
10
6.092196
20
2.977137
0
VERTEX
8
1
10
6.091929
20
3.009977
0
VERTEX
8
1
10
6.090819
20
3.042799
42
0.195885
0
VERTEX
8
1
10
5.787704
20
3.753909
42
0.035676
0
VERTEX
8
1
10
5.442394
20
4.047628
42
-0.016114
0
VERTEX
8
1
10
5.235836
20
4.219274
0
VERTEX
8
1
10
5.298726
20
4.234909
42
-0.050176
0
SEQEND
0
POLYLINE
8
1
66
1
70
1
0
VERTEX
8
1
10
5.418239
20
4.408909
42
-0.085124
0
VERTEX
8
1
10
5.625635
20
4.891164
42
-0.051269
0
VERTEX
8
1
10
6.122474
20
5.511034
42
-0.019227
0
VERTEX
8
1
10
6.705308
20
6.061999
42
-0.120824
0
VERTEX
8
1
10
6.673503
20
5.912745
42
-0.107963
0
VERTEX
8
1
10
6.412494
20
5.498826
42
-0.043601
0
VERTEX
8
1
10
6.348013
20
5.451331
42
0.310072
0
VERTEX
8
1
10
6.641927
20
5.592160
0
VERTEX
8
1
10
6.649829
20
5.604208
42
0.018155
0
VERTEX
8
1
10
6.749239
20
5.802880
0
VERTEX
8
1
10
6.762648
20
5.826863
0
VERTEX
8
1
10
6.776939
20
5.850331
42
-0.296501
0
VERTEX
8
1
10
7.055559
20
6.001982
42
-0.194902
0
VERTEX
8
1
10
7.060886
20
5.969310
42
-0.098295
0
VERTEX
8
1
10
6.817389
20
5.594236
42
-0.009326
0
VERTEX
8
1
10
6.543082
20
5.312908
0
VERTEX
8
1
10
6.512345
20
5.279042
0
VERTEX
8
1
10
6.482264
20
5.244593
42
0.162243
0
VERTEX
8
1
10
6.215003
20
4.663115
0
VERTEX
8
1
10
6.196060
20
4.651381
42
0.050337
0
VERTEX
8
1
10
5.694115
20
4.558812
42
0.098832
0
SEQEND
0
POLYLINE
8
1
66
1
70
1
0
VERTEX
8
1
10
7.789228
20
6.640022
42
-0.138785
0
VERTEX
8
1
10
8.177017
20
6.921190
0
VERTEX
8
1
10
8.359381
20
6.921269
0
VERTEX
8
1
10
8.362848
20
6.897150
0
VERTEX
8
1
10
8.365555
20
6.872933
42
-0.229376
0
VERTEX
8
1
10
8.239189
20
6.470136
0
VERTEX
8
1
10
8.218479
20
6.446076
42
0.046188
0
VERTEX
8
1
10
8.060270
20
6.258260
0
VERTEX
8
1
10
8.056440
20
6.242938
42
-0.117428
0
VERTEX
8
1
10
8.113403
20
5.926035
42
-0.118517
0
VERTEX
8
1
10
7.995675
20
5.455923
42
-0.090551
0
VERTEX
8
1
10
7.848637
20
5.292182
42
-0.043716
0
VERTEX
8
1
10
7.520261
20
5.054163
42
-0.041714
0
VERTEX
8
1
10
6.713867
20
4.630427
42
-0.023566
0
VERTEX
8
1
10
6.587260
20
4.590402
42
-0.169962
0
VERTEX
8
1
10
6.567356
20
4.597095
42
0.121598
0
VERTEX
8
1
10
6.394939
20
4.666828
42
0.102117
0
VERTEX
8
1
10
6.338444
20
4.655880
42
-0.195237
0
VERTEX
8
1
10
6.537241
20
5.092658
42
-0.052376
0
VERTEX
8
1
10
6.768436
20
5.285748
0
VERTEX
8
1
10
6.833586
20
5.332829
0
VERTEX
8
1
10
6.898995
20
5.379550
42
0.069296
0
VERTEX
8
1
10
7.239872
20
5.673843
0
VERTEX
8
1
10
7.259015
20
5.698086
42
0.051119
0
VERTEX
8
1
10
7.496568
20
6.122214
42
-0.029734
0
VERTEX
8
1
10
7.698926
20
6.512427
42
-0.023205
0
SEQEND
0
POLYLINE
8
1
66
1
70
1
0
VERTEX
8
1
10
8.326408
20
5.640810
42
0.083961
0
VERTEX
8
1
10
8.392315
20
6.068553
0
VERTEX
8
1
10
8.392988
20
6.096089
42
-0.059753
0
VERTEX
8
1
10
8.420603
20
6.447991
42
-0.114339
0
VERTEX
8
1
10
8.539495
20
6.671015
0
VERTEX
8
1
10
8.550703
20
6.635142
42
-0.108909
0
VERTEX
8
1
10
8.491522
20
5.921358
0
VERTEX
8
1
10
8.478069
20
5.875661
0
VERTEX
8
1
10
8.463741
20
5.830230
0
VERTEX
8
1
10
8.448544
20
5.785083
0
VERTEX
8
1
10
8.432480
20
5.740236
0
VERTEX
8
1
10
8.415560
20
5.695707
42
-0.109915
0
VERTEX
8
1
10
7.529470
20
4.433043
0
VERTEX
8
1
10
7.511964
20
4.418839
0
VERTEX
8
1
10
7.492934
20
4.407689
42
-0.114496
0
VERTEX
8
1
10
6.892357
20
4.504944
0
VERTEX
8
1
10
6.859087
20
4.517460
0
VERTEX
8
1
10
6.825983
20
4.530402
42
-0.077963
0
VERTEX
8
1
10
7.327358
20
4.858006
42
-0.004833
0
VERTEX
8
1
10
7.739384
20
5.043196
42
0.070356
0
VERTEX
8
1
10
8.082830
20
5.260544
42
0.129933
0
SEQEND
0
POLYLINE
8
1
66
1
70
1
0
VERTEX
8
1
10
5.866364
20
3.306930
42
-0.083480
0
VERTEX
8
1
10
5.907756
20
2.813243
0
VERTEX
8
1
10
5.879344
20
2.812545
42
-0.413098
0
VERTEX
8
1
10
5.776979
20
2.907076
42
-0.080728
0
VERTEX
8
1
10
5.774936
20
3.034849
42
0.016377
0
VERTEX
8
1
10
5.795786
20
3.257170
0
VERTEX
8
1
10
5.795533
20
3.282464
0
VERTEX
8
1
10
5.794246
20
3.307726
0
VERTEX
8
1
10
5.791925
20
3.332914
42
0.282701
0
VERTEX
8
1
10
5.725384
20
3.425632
42
-0.550804
0
VERTEX
8
1
10
5.820574
20
3.407153
42
-0.080180
0
SEQEND
0
POLYLINE
8
1
66
1
70
1
0
VERTEX
8
1
10
4.731152
20
2.084783
42
-0.134239
0
VERTEX
8
1
10
4.676759
20
3.403808
42
-0.097106
0
VERTEX
8
1
10
4.873693
20
3.851923
0
VERTEX
8
1
10
4.889709
20
3.872730
0
VERTEX
8
1
10
4.906213
20
3.893151
0
VERTEX
8
1
10
4.927465
20
3.899752
42
-0.026947
0
VERTEX
8
1
10
4.931472
20
3.512079
0
VERTEX
8
1
10
4.930768
20
3.419593
42
0.071019
0
VERTEX
8
1
10
4.968938
20
2.994075
0
VERTEX
8
1
10
4.975722
20
2.973032
0
VERTEX
8
1
10
4.983278
20
2.952254
42
0.217646
0
VERTEX
8
1
10
5.159713
20
2.755578
0
VERTEX
8
1
10
5.175133
20
2.767506
0
VERTEX
8
1
10
5.183650
20
2.795923
42
0.062919
0
VERTEX
8
1
10
5.223072
20
3.151150
42
-0.019958
0
VERTEX
8
1
10
5.233716
20
3.660683
42
-0.074796
0
VERTEX
8
1
10
5.291297
20
3.911028
0
VERTEX
8
1
10
5.301370
20
3.892127
42
0.017301
0
VERTEX
8
1
10
5.474952
20
3.454294
0
VERTEX
8
1
10
5.497207
20
3.395259
42
-0.156217
0
VERTEX
8
1
10
5.561186
20
2.490647
42
-0.036202
0
VERTEX
8
1
10
5.383602
20
1.931006
0
VERTEX
8
1
10
5.350442
20
1.838948
42
0.067143
0
VERTEX
8
1
10
5.234744
20
1.390688
0
VERTEX
8
1
10
5.233526
20
1.366680
0
VERTEX
8
1
10
5.233157
20
1.342645
42
-0.116925
0
VERTEX
8
1
10
5.346592
20
1.342907
0
VERTEX
8
1
10
5.378932
20
1.339292
0
VERTEX
8
1
10
5.411314
20
1.336087
42
0.180907
0
VERTEX
8
1
10
5.519154
20
1.349041
42
0.278460
0
VERTEX
8
1
10
5.536572
20
1.399755
0
VERTEX
8
1
10
5.529447
20
1.409563
42
-0.313561
0
VERTEX
8
1
10
5.427969
20
1.637687
42
-0.083134
0
VERTEX
8
1
10
5.484702
20
1.830487
42
-0.032714
0
VERTEX
8
1
10
5.617727
20
2.091118
42
0.028237
0
VERTEX
8
1
10
5.786669
20
2.421389
42
0.052090
0
VERTEX
8
1
10
5.846235
20
2.614576
0
VERTEX
8
1
10
5.854815
20
2.627162
42
-0.269317
0
VERTEX
8
1
10
5.970900
20
2.512116
42
-0.073105
0
VERTEX
8
1
10
6.004718
20
2.339192
0
VERTEX
8
1
10
6.010542
20
2.291946
0
VERTEX
8
1
10
6.017101
20
2.244796
42
0.145263
0
VERTEX
8
1
10
6.080458
20
2.062819
42
0.132913
0
VERTEX
8
1
10
6.152378
20
2.015087
0
VERTEX
8
1
10
6.151473
20
2.024102
42
-0.402387
0
VERTEX
8
1
10
6.246990
20
2.168074
42
-0.018756
0
VERTEX
8
1
10
6.394151
20
2.199314
0
VERTEX
8
1
10
6.399125
20
2.198380
42
-0.103830
0
VERTEX
8
1
10
6.648634
20
1.963072
42
-0.000366
0
VERTEX
8
1
10
6.827543
20
1.708086
42
-0.061815
0
VERTEX
8
1
10
6.913063
20
1.840948
42
-0.241684
0
VERTEX
8
1
10
7.072476
20
1.891285
42
-0.135823
0
VERTEX
8
1
10
7.359446
20
1.329773
0
VERTEX
8
1
10
7.370288
20
1.279144
42
-0.019760
0
VERTEX
8
1
10
7.436960
20
0.809912
42
0.026468
0
VERTEX
8
1
10
7.491933
20
0.517288
0
VERTEX
8
1
10
7.514246
20
0.496116
42
0.133551
0
VERTEX
8
1
10
7.752782
20
0.889695
42
0.126300
0
VERTEX
8
1
10
7.749555
20
1.260382
42
0.054461
0
VERTEX
8
1
10
7.569359
20
1.724365
42
-0.035047
0
VERTEX
8
1
10
7.370548
20
2.207058
42
-0.028364
0
VERTEX
8
1
10
7.322242
20
2.408800
0
VERTEX
8
1
10
7.322975
20
2.450424
42
-0.299192
0
VERTEX
8
1
10
7.501518
20
2.494401
0
VERTEX
8
1
10
7.514717
20
2.491228
42
0.023800
0
VERTEX
8
1
10
7.679098
20
2.445011
0
VERTEX
8
1
10
7.684876
20
2.458183
42
0.218147
0
VERTEX
8
1
10
7.579534
20
2.759867
0
VERTEX
8
1
10
7.559134
20
2.785703
0
VERTEX
8
1
10
7.539041
20
2.811779
42
-0.176891
0
VERTEX
8
1
10
7.439587
20
3.058117
0
VERTEX
8
1
10
7.460131
20
3.060574
42
-0.178223
0
VERTEX
8
1
10
7.731286
20
3.007951
0
VERTEX
8
1
10
7.746542
20
2.997812
42
0.195214
0
VERTEX
8
1
10
7.628027
20
3.272431
42
0.056965
0
VERTEX
8
1
10
7.384413
20
3.467952
42
-0.047523
0
VERTEX
8
1
10
7.166040
20
3.643300
0
VERTEX
8
1
10
7.149212
20
3.662695
42
-0.320670
0
VERTEX
8
1
10
7.107262
20
3.960520
42
-0.075859
0
VERTEX
8
1
10
7.197341
20
4.100616
0
VERTEX
8
1
10
7.227938
20
4.096546
0
VERTEX
8
1
10
7.258649
20
4.093461
0
VERTEX
8
1
10
7.289443
20
4.091363
42
0.207356
0
VERTEX
8
1
10
7.760310
20
4.247416
0
VERTEX
8
1
10
7.782598
20
4.265952
0
VERTEX
8
1
10
7.804505
20
4.284936
42
-0.037354
0
VERTEX
8
1
10
8.049330
20
4.497020
42
-0.096575
0
VERTEX
8
1
10
8.273367
20
4.588848
0
VERTEX
8
1
10
8.298269
20
4.599882
42
-0.112956
0
VERTEX
8
1
10
8.345263
20
4.995266
42
-0.186737
0
VERTEX
8
1
10
8.640915
20
5.306270
42
-0.047949
0
VERTEX
8
1
10
8.832113
20
5.384163
42
0.011209
0
VERTEX
8
1
10
8.842224
20
5.400310
42
-0.288192
0
VERTEX
8
1
10
8.788904
20
5.976458
42
-0.195928
0
VERTEX
8
1
10
9.142735
20
6.303984
0
VERTEX
8
1
10
9.147316
20
6.307697
0
VERTEX
8
1
10
9.151184
20
6.312149
42
-0.038404
0
VERTEX
8
1
10
8.980143
20
6.438798
42
-0.226820
0
VERTEX
8
1
10
8.909702
20
6.654086
42
-0.257532
0
VERTEX
8
1
10
9.107027
20
6.956141
0
VERTEX
8
1
10
9.135942
20
6.973883
0
VERTEX
8
1
10
9.165421
20
6.990670
42
0.041234
0
VERTEX
8
1
10
9.426842
20
7.135124
42
0.229456
0
VERTEX
8
1
10
9.584642
20
7.405305
42
0.101381
0
VERTEX
8
1
10
9.493776
20
7.423456
42
0.059093
0
VERTEX
8
1
10
8.956257
20
7.393455
0
VERTEX
8
1
10
8.870905
20
7.381977
0
VERTEX
8
1
10
8.785450
20
7.371287
42
-0.080375
0
VERTEX
8
1
10
8.371168
20
7.370808
42
-0.044299
0
VERTEX
8
1
10
8.236996
20
7.410742
42
-0.177784
0
VERTEX
8
1
10
8.175577
20
7.230732
0
VERTEX
8
1
10
8.154184
20
7.221511
42
0.097447
0
VERTEX
8
1
10
6.610906
20
6.399448
42
0.037260
0
VERTEX
8
1
10
5.700015
20
5.536361
42
0.004913
0
VERTEX
8
1
10
5.278028
20
5.071400
0
VERTEX
8
1
10
5.235690
20
5.030166
42
0.074472
0
VERTEX
8
1
10
5.260741
20
5.208327
42
0.111250
0
VERTEX
8
1
10
5.230236
20
5.294809
42
-0.048803
0
VERTEX
8
1
10
5.173742
20
5.442305
0
VERTEX
8
1
10
5.176280
20
5.459871
42
-0.114298
0
VERTEX
8
1
10
5.348168
20
5.660107
42
0.025815
0
VERTEX
8
1
10
5.574465
20
5.839886
42
0.175250
0
VERTEX
8
1
10
5.722365
20
6.119994
42
0.228897
0
VERTEX
8
1
10
5.660977
20
6.235607
42
0.226361
0
VERTEX
8
1
10
5.447078
20
6.299454
42
0.345670
0
VERTEX
8
1
10
5.354725
20
6.167933
42
0.043002
0
VERTEX
8
1
10
5.355550
20
6.123261
42
0.268789
0
VERTEX
8
1
10
5.460326
20
6.138367
42
-0.066851
0
VERTEX
8
1
10
5.548512
20
6.193957
42
-0.399918
0
VERTEX
8
1
10
5.589534
20
6.159611
42
-0.229562
0
VERTEX
8
1
10
5.590382
20
6.083792
42
-0.148707
0
VERTEX
8
1
10
5.419774
20
5.815581
0
VERTEX
8
1
10
5.397497
20
5.794718
42
0.037625
0
VERTEX
8
1
10
5.149858
20
5.570576
42
0.090078
0
VERTEX
8
1
10
5.048749
20
5.394507
42
0.130427
0
VERTEX
8
1
10
4.883239
20
5.670287
0
VERTEX
8
1
10
4.861405
20
5.693133
0
VERTEX
8
1
10
4.839066
20
5.715484
42
-0.031261
0
VERTEX
8
1
10
4.598105
20
5.950821
42
-0.066170
0
VERTEX
8
1
10
4.503078
20
6.107820
0
VERTEX
8
1
10
4.499516
20
6.126266
42
-0.463825
0
VERTEX
8
1
10
4.627003
20
6.170837
0
VERTEX
8
1
10
4.647307
20
6.162962
0
VERTEX
8
1
10
4.667260
20
6.154231
42
0.178988
0
VERTEX
8
1
10
4.759600
20
6.131652
42
0.296989
0
VERTEX
8
1
10
4.799943
20
6.184958
42
0.279013
0
VERTEX
8
1
10
4.589184
20
6.285020
42
0.306916
0
VERTEX
8
1
10
4.447707
20
6.145333
42
0.072772
0
VERTEX
8
1
10
4.437837
20
6.064781
0
VERTEX
8
1
10
4.443107
20
6.051776
42
0.039908
0
VERTEX
8
1
10
4.598943
20
5.847889
42
-0.032712
0
VERTEX
8
1
10
4.822711
20
5.564553
0
VERTEX
8
1
10
4.840183
20
5.536318
0
VERTEX
8
1
10
4.856822
20
5.507584
0
VERTEX
8
1
10
4.872615
20
5.478377
0
VERTEX
8
1
10
4.887548
20
5.448721
42
-0.256384
0
VERTEX
8
1
10
4.869129
20
5.028274
0
VERTEX
8
1
10
4.818564
20
5.082569
42
0.067143
0
VERTEX
8
1
10
3.704597
20
6.193066
42
0.038240
0
VERTEX
8
1
10
2.352167
20
7.065179
0
VERTEX
8
1
10
2.262475
20
7.114500
0
VERTEX
8
1
10
2.172353
20
7.163419
42
-0.073026
0
VERTEX
8
1
10
1.769911
20
7.195071
42
-0.005480
0
VERTEX
8
1
10
1.276294
20
7.313042
42
0.070102
0
VERTEX
8
1
10
0.879879
20
7.356946
0
VERTEX
8
1
10
0.851031
20
7.354303
42
0.231129
0
VERTEX
8
1
10
0.512534
20
7.164407
42
0.082139
0
VERTEX
8
1
10
0.707145
20
7.032132
0
VERTEX
8
1
10
0.758088
20
7.005959
0
VERTEX
8
1
10
0.809345
20
6.980403
42
-0.082985
0
VERTEX
8
1
10
1.065927
20
6.818582
42
-0.229526
0
VERTEX
8
1
10
1.181937
20
6.479466
42
-0.148013
0
VERTEX
8
1
10
1.105185
20
6.340261
42
0.084008
0
VERTEX
8
1
10
1.019713
20
6.220668
42
0.090383
0
VERTEX
8
1
10
1.001711
20
6.134458
0
VERTEX
8
1
10
1.014422
20
6.123971
42
-0.320350
0
VERTEX
8
1
10
1.375210
20
5.803598
42
-0.234606
0
VERTEX
8
1
10
1.289879
20
5.371748
42
-0.036756
0
VERTEX
8
1
10
1.246256
20
5.326515
42
-0.154700
0
VERTEX
8
1
10
1.711399
20
5.067946
42
-0.172447
0
VERTEX
8
1
10
1.836628
20
4.789545
42
-0.121207
0
VERTEX
8
1
10
1.801654
20
4.600085
42
0.089227
0
VERTEX
8
1
10
1.850013
20
4.574517
42
-0.080834
0
VERTEX
8
1
10
2.151425
20
4.386698
42
0.039353
0
VERTEX
8
1
10
2.460267
20
4.148670
42
0.155146
0
VERTEX
8
1
10
2.961984
20
4.034645
0
VERTEX
8
1
10
2.993380
20
4.036726
0
VERTEX
8
1
10
3.024705
20
4.039687
42
0.174539
0
VERTEX
8
1
10
3.084579
20
3.858090
42
-0.245327
0
VERTEX
8
1
10
2.951276
20
3.528559
42
-0.049030
0
VERTEX
8
1
10
2.662927
20
3.328638
0
VERTEX
8
1
10
2.634521
20
3.309347
0
VERTEX
8
1
10
2.606643
20
3.289302
0
VERTEX
8
1
10
2.579311
20
3.268517
42
0.155805
0
VERTEX
8
1
10
2.458814
20
3.111862
42
0.170321
0
VERTEX
8
1
10
2.470739
20
2.944394
0
VERTEX
8
1
10
2.471174
20
2.950643
42
-0.293266
0
VERTEX
8
1
10
2.531371
20
2.997547
42
-0.157018
0
VERTEX
8
1
10
2.751228
20
2.986825
42
-0.359082
0
VERTEX
8
1
10
2.779100
20
2.936503
0
VERTEX
8
1
10
2.776524
20
2.932512
42
0.076975
0
VERTEX
8
1
10
2.540395
20
2.591699
42
0.055714
0
VERTEX
8
1
10
2.472548
20
2.383425
42
0.123032
0
VERTEX
8
1
10
2.633110
20
2.427844
42
-0.185804
0
VERTEX
8
1
10
2.840760
20
2.443800
42
0.172752
0
VERTEX
8
1
10
2.902623
20
2.260975
42
-0.016491
0
VERTEX
8
1
10
2.696030
20
1.819790
42
0.040865
0
VERTEX
8
1
10
2.506167
20
1.345457
0
VERTEX
8
1
10
2.494943
20
1.303344
0
VERTEX
8
1
10
2.484752
20
1.260968
42
0.134049
0
VERTEX
8
1
10
2.487005
20
0.808653
42
0.151051
0
VERTEX
8
1
10
2.730601
20
0.460687
0
VERTEX
8
1
10
2.755307
20
0.440905
0
VERTEX
8
1
10
2.780676
20
0.421981
42
0.122988
0
VERTEX
8
1
10
2.754297
20
0.657628
0
VERTEX
8
1
10
2.736169
20
0.715355
42
-0.141746
0
VERTEX
8
1
10
2.719392
20
0.974277
42
-0.176807
0
VERTEX
8
1
10
2.852110
20
0.940869
42
0.165709
0
VERTEX
8
1
10
2.964818
20
0.912061
42
-0.098359
0
VERTEX
8
1
10
2.874179
20
1.410888
42
-0.145359
0
VERTEX
8
1
10
2.971440
20
1.720020
42
-0.103392
0
VERTEX
8
1
10
3.087722
20
1.830344
42
-0.258088
0
VERTEX
8
1
10
3.248051
20
1.817971
42
-0.025526
0
VERTEX
8
1
10
3.325833
20
1.739632
42
0.230450
0
VERTEX
8
1
10
3.448855
20
1.709886
42
0.079266
0
VERTEX
8
1
10
3.470143
20
1.779093
42
-0.275305
0
VERTEX
8
1
10
3.805633
20
2.090273
42
-0.145160
0
VERTEX
8
1
10
4.188802
20
2.078450
0
VERTEX
8
1
10
4.190460
20
2.096889
42
-0.018949
0
VERTEX
8
1
10
4.195629
20
2.383381
42
-0.133903
0
VERTEX
8
1
10
4.242867
20
2.515633
42
-0.236261
0
VERTEX
8
1
10
4.373851
20
2.567521
42
0.095061
0
VERTEX
8
1
10
4.473605
20
2.258433
42
0.012773
0
VERTEX
8
1
10
4.681406
20
1.891757
42
-0.052132
0
VERTEX
8
1
10
4.781660
20
1.663186
0
VERTEX
8
1
10
4.787033
20
1.641272
0
VERTEX
8
1
10
4.791541
20
1.619163
42
-0.291022
0
VERTEX
8
1
10
4.708318
20
1.363864
0
VERTEX
8
1
10
4.683831
20
1.340235
0
VERTEX
8
1
10
4.700367
20
1.330436
42
0.171424
0
VERTEX
8
1
10
4.858583
20
1.291181
42
0.222731
0
VERTEX
8
1
10
4.963460
20
1.372668
0
VERTEX
8
1
10
4.971821
20
1.386087
42
0.048716
0
VERTEX
8
1
10
5.042967
20
1.570861
0
VERTEX
8
1
10
5.036477
20
1.594869
0
VERTEX
8
1
10
5.014817
20
1.613574
0
VERTEX
8
1
10
4.993892
20
1.633098
42
-0.108432
0
VERTEX
8
1
10
4.747233
20
2.041848
0
SEQEND
0
ENDSEC
0
EOF
